seven nation army solo tab

chris_gibson69

Youth Team
does anyone have a decent tab of the solo in Seven Nation Army by The White Stripes?

i've found a couple, and it sounds ok but i was wondering if there are any that you have which are note for note?
 

Alistair

Starting XI
Is this any help?
Source: http://www.mxtabs.net/tab_versions.php?path=Guitar,w,3632,White+Stripes,7+Nation+Army,135285

SOLO
E --------------------------------------------------------------|
B --------------------------------------------------------------|
G -9---9--12--9--9--12b-11-----9--9--12--14--12--12b14b12b-11---|
D --------------------------------------------------------------| X 2
A --------------------------------------------------------------|
E --------------------------------------------------------------|


E -12---12--15--12--12--15b-14------12--12--15--17--15--15b17b15b-14---|
B ---------------------------------------------------------------------|
G ---------------------------------------------------------------------|
D ---------------------------------------------------------------------|
A ---------------------------------------------------------------------|
E ---------------------------------------------------------------------|


E -12---12--15--12--12--15b-14------12-12-14-12-12-14-12-14-12---------|
B -------------------------------------------------------------13-12---|
G ---------------------------------------------------------------------|
D ---------------------------------------------------------------------|
A ---------------------------------------------------------------------|
E ---------------------------------------------------------------------|
 

Larry

Fan Favourite
My mate can do this on his guitar and it sounds awesome. Apparently its an easy tab to play.

Can you do Teen Spirit?
 

bjmenge

The Man From Ohio
My roommate is a huge White Stripes fan, and I swear he knows most all of their songs by heart. The scary thing is whenever I play a rock song on my stereo or computer, he picks up his guitar and starts playing right along, or can learn most of them by ear, within five minutes. It's crazy.
 

chris_gibson69

Youth Team
@mishkin

the solo, link and chorus are all played on a reg guitar, Carlos white just restrings his top two strings to bass strings.

@ alistair

it's one of the tabs i already had
 

INFESTA

Official
Originally posted by Mishkin
I think you need Bass tabs, that's why it doesn't sound right.


Pssst, the White Stripes don't have a bass guitar.




And it is a rather easy tab to play (I don't think Carlos White does it like the tab Alistair posted, though).
Same goes to 'Smells Like Teens Spirit', which is okay bcs simple = good. ;)
 


Top